Am      Em      Am/F    Cmaj7    Am      Em      Am/F    G
e|--------------------------------|--------------------------------|
B|1-----1-0-----------1-----------|----1---0-----------1---0-----0-|
G|----2-------0---2-------0-----0-|2-----------0---2-----------0---|
D|--2-------2---2---2---2-----2---|--2---2---2---2---2---2---0-----|
A|0-----------------------3-3-----|0-------------------------------|
E|--------0-------1---------------|--------0-------1-------3-------|


[Verse]

Am          Em        F                  C
I need some sleep You can't Go home like this

Am             Em        F                    G
I try counting sheep But there's one I always miss

Am       Em       F               C
Everyone says I'm getting down to low

Am       Em         F                 C
Everyone says, "You just gotta let it go"


[Chorus]

    F                 C
You just gotta let it Go

    F                 C
You just gotta let it Go

  Am      Em      Am/F    Cmaj7
e|--------------------0----------|
B|----1---0-----0----------------|
G|2-----------0---2-------0-----0|
D|--2---2---2-------2---2-----2--|
A|0-----------------------3-3----|
E|--------0-------1--------------|


[Verse]

Am          Em            F                 C
I need some sleep time to put the old horse down

Am         Em           F                    G
I'm in too deep and the wheels keep spinning round

Am       Em       F               C
Everyone says I'm getting down to low

Am       Em         F                 C
Everyone says, "You just gotta let it go"


[Chorus]

F                     C
You just gotta let it Go

F                     C
You just gotta let it Go

  Am      Em      Am/F    Cmaj7    Am      Em      Am/F    G
e|--------------------------------|--------------------------------|
B|----1---0-----0-----1-----------|----1---0-----0-----1---0-----0-|
G|2-----------0---2-------0-----0-|2-----------0---2-----------0---|
D|--2---2---2-------2---2-----2---|--2---2---2-------2---2---0-----|
A|0-----------------------3-3-----|0-------------------------------|
E|--------0-------1---------------|--------0-------1-------3-------|


                   You just goota let it Go

  Am      Em      Am/F    Cmaj7    Am      Em      F       C     
e|--------------------------------|--------------------------------|
B|----1---0-----0-----1-----------|----1---0-----0-----------------|
G|2-----------0---2-------0-----0-|2-----------0-------2---0-------|
D|--2---2---2-------2---2-----2---|--2---2---2-----3-----3-----2---|
A|0-----------------------3-3-----|0-----------------3-----3-3---3-|
E|--------0-------1---------------|--------0-------1---------------|


                     You just gotta let it Go
  F       C          F       C       
e|----------------|e|----------------|
B|----------------|B|----------------|
G|----2---0-------|G|----2---0-------|
D|3-----3-----2---|D|3-----3-----2---|
A|--3-----3-3---3-|A|--3-----3-3---3-|
E|1---------------|E|1---------------|


                     You just gotta let it Go
  F       C          F       C       
e|----------------|e|----------------|
B|----------------|B|----------------|
G|----2---0-------|G|----2---0-------|
D|3-----3-----2---|D|3-----3-----2---|
A|--3-----3-3---3-|A|--3-----3-3---3-|
E|1---------------|E|1---------------|

 

75x80 am_0.gif75x80 em_0.gif75x80 f_0.gif75x80 c_0.gif75x80 g_0.gif



Тут
Купить товары из любой точки мира с доставкой в Москву? Легко
hostelcheck.ru
Купить необычные подарки на день рождения
Купи у нас и мы отправим заказ на следующий день
shokobutik.ru
create by Maple4 Site Creator 4/2018


Rambler's Top100 Рейтинг@Mail.ru Участник проекта CMS Magazine